ISO-10303-21;
HEADER;
/* Generated by software containing ST-Developer
 * from STEP Tools, Inc. (www.steptools.com) 
 */
/* OPTION: using custom schema-name function */

FILE_DESCRIPTION(
/* description */ (''),
/* implementation_level */ '2;1');

FILE_NAME(
/* name */ 'TTF01S.stp',
/* time_stamp */ '2022-11-21T16:11:38+08:00',
/* author */ (''),
/* organization */ (''),
/* preprocessor_version */ 'ST-DEVELOPER v16.7',
/* originating_system */ 'SIEMENS PLM Software NX 12.0',
/* authorisation */ '');

FILE_SCHEMA (('AP203_CONFIGURATION_CONTROLLED_3D_DESIGN_OF_MECHANICAL_PARTS_AND_ASSEMBLIES_MIM_LF { 1 0 10303 403 2 1 2}'));
ENDSEC;

DATA;
#10=SHAPE_REPRESENTATION_RELATIONSHIP('None',
'relationship between VCF01S_step-None and VCF01S_step-None',#92,#11);
#11=ADVANCED_BREP_SHAPE_REPRESENTATION('VCF01S_step-None',(#102),#501);
#12=CC_DESIGN_APPROVAL(#24,(#82));
#13=CC_DESIGN_APPROVAL(#25,(#84));
#14=CC_DESIGN_APPROVAL(#26,(#31));
#15=APPROVAL_PERSON_ORGANIZATION(#69,#24,#18);
#16=APPROVAL_PERSON_ORGANIZATION(#70,#25,#19);
#17=APPROVAL_PERSON_ORGANIZATION(#71,#26,#20);
#18=APPROVAL_ROLE('approver');
#19=APPROVAL_ROLE('approver');
#20=APPROVAL_ROLE('approver');
#21=APPROVAL_DATE_TIME(#39,#24);
#22=APPROVAL_DATE_TIME(#40,#25);
#23=APPROVAL_DATE_TIME(#41,#26);
#24=APPROVAL(#27,' ');
#25=APPROVAL(#28,' ');
#26=APPROVAL(#29,' ');
#27=APPROVAL_STATUS('not_yet_approved');
#28=APPROVAL_STATUS('not_yet_approved');
#29=APPROVAL_STATUS('not_yet_approved');
#30=CC_DESIGN_SECURITY_CLASSIFICATION(#31,(#84));
#31=SECURITY_CLASSIFICATION(' ',' ',#32);
#32=SECURITY_CLASSIFICATION_LEVEL('confidential');
#33=CC_DESIGN_DATE_AND_TIME_ASSIGNMENT(#37,#35,(#82));
#34=CC_DESIGN_DATE_AND_TIME_ASSIGNMENT(#38,#36,(#31));
#35=DATE_TIME_ROLE('creation_date');
#36=DATE_TIME_ROLE('classification_date');
#37=DATE_AND_TIME(#52,#42);
#38=DATE_AND_TIME(#53,#43);
#39=DATE_AND_TIME(#54,#44);
#40=DATE_AND_TIME(#55,#45);
#41=DATE_AND_TIME(#56,#46);
#42=LOCAL_TIME(0,0,0.,#47);
#43=LOCAL_TIME(0,0,0.,#48);
#44=LOCAL_TIME(0,0,0.,#49);
#45=LOCAL_TIME(0,0,0.,#50);
#46=LOCAL_TIME(0,0,0.,#51);
#47=COORDINATED_UNIVERSAL_TIME_OFFSET(0,0,.BEHIND.);
#48=COORDINATED_UNIVERSAL_TIME_OFFSET(0,0,.BEHIND.);
#49=COORDINATED_UNIVERSAL_TIME_OFFSET(0,0,.BEHIND.);
#50=COORDINATED_UNIVERSAL_TIME_OFFSET(0,0,.BEHIND.);
#51=COORDINATED_UNIVERSAL_TIME_OFFSET(0,0,.BEHIND.);
#52=CALENDAR_DATE(0,1,1);
#53=CALENDAR_DATE(0,1,1);
#54=CALENDAR_DATE(0,1,1);
#55=CALENDAR_DATE(0,1,1);
#56=CALENDAR_DATE(0,1,1);
#57=CC_DESIGN_PERSON_AND_ORGANIZATION_ASSIGNMENT(#65,#61,(#82,#84));
#58=CC_DESIGN_PERSON_AND_ORGANIZATION_ASSIGNMENT(#66,#62,(#86));
#59=CC_DESIGN_PERSON_AND_ORGANIZATION_ASSIGNMENT(#67,#63,(#84));
#60=CC_DESIGN_PERSON_AND_ORGANIZATION_ASSIGNMENT(#68,#64,(#31));
#61=PERSON_AND_ORGANIZATION_ROLE('creator');
#62=PERSON_AND_ORGANIZATION_ROLE('design_owner');
#63=PERSON_AND_ORGANIZATION_ROLE('design_supplier');
#64=PERSON_AND_ORGANIZATION_ROLE('classification_officer');
#65=PERSON_AND_ORGANIZATION(#79,#72);
#66=PERSON_AND_ORGANIZATION(#79,#73);
#67=PERSON_AND_ORGANIZATION(#79,#74);
#68=PERSON_AND_ORGANIZATION(#79,#75);
#69=PERSON_AND_ORGANIZATION(#79,#76);
#70=PERSON_AND_ORGANIZATION(#79,#77);
#71=PERSON_AND_ORGANIZATION(#79,#78);
#72=ORGANIZATION(' ',' ',' ');
#73=ORGANIZATION(' ',' ',' ');
#74=ORGANIZATION(' ',' ',' ');
#75=ORGANIZATION(' ',' ',' ');
#76=ORGANIZATION(' ',' ',' ');
#77=ORGANIZATION(' ',' ',' ');
#78=ORGANIZATION(' ',' ',' ');
#79=PERSON(' ',' ',' ',(' '),$,$);
#80=SHAPE_DEFINITION_REPRESENTATION(#81,#92);
#81=PRODUCT_DEFINITION_SHAPE('','',#82);
#82=PRODUCT_DEFINITION(' ','',#84,#83);
#83=DESIGN_CONTEXT('',#91,'design');
#84=PRODUCT_DEFINITION_FORMATION_WITH_SPECIFIED_SOURCE(' ',' ',#86,
 .NOT_KNOWN.);
#85=PRODUCT_RELATED_PRODUCT_CATEGORY('detail','',(#86));
#86=PRODUCT('VCF01S_step','VCF01S_step',' ',(#89));
#87=PRODUCT_CATEGORY('part',' ');
#88=PRODUCT_CATEGORY(' ','');
#89=MECHANICAL_CONTEXT(' ',#91,'mechanical');
#90=APPLICATION_PROTOCOL_DEFINITION('international standard',
'config_control_design',2010,#91);
#91=APPLICATION_CONTEXT(
'configuration controlled 3D designs of mechanical parts and assemblie
s');
#92=SHAPE_REPRESENTATION('VCF01S_step-None',(#304),#501);
#93=PRESENTATION_LAYER_ASSIGNMENT('1','Layer 1',(#102));
#94=STYLED_ITEM('',(#95),#102);
#95=PRESENTATION_STYLE_ASSIGNMENT((#96));
#96=SURFACE_STYLE_USAGE(.BOTH.,#97);
#97=SURFACE_SIDE_STYLE('',(#98));
#98=SURFACE_STYLE_FILL_AREA(#99);
#99=FILL_AREA_STYLE('',(#100));
#100=FILL_AREA_STYLE_COLOUR('',#101);
#101=COLOUR_RGB('Medium Steel',0.596063172350652,0.666666666666667,0.686259250782025);
#102=MANIFOLD_SOLID_BREP('',#103);
#103=CLOSED_SHELL('',(#115,#116,#117,#118,#119,#120,#121,#122,#123,#124,
#125,#126,#127,#128,#129));
#104=PLANE('',#322);
#105=PLANE('',#326);
#106=PLANE('',#332);
#107=FACE_BOUND('',#156,.T.);
#108=FACE_BOUND('',#157,.T.);
#109=(
BOUNDED_SURFACE()
B_SPLINE_SURFACE(3,3,((#446,#447,#448,#449),(#450,#451,#452,#453),(#454,
#455,#456,#457),(#458,#459,#460,#461)),.UNSPECIFIED.,.F.,.F.,.F.)
B_SPLINE_SURFACE_WITH_KNOTS((4,4),(4,4),(0.,1.),(0.,1.),.UNSPECIFIED.)
GEOMETRIC_REPRESENTATION_ITEM()
RATIONAL_B_SPLINE_SURFACE(((1.,0.333333333333333,0.333333333333333,1.),
(0.804737854124365,0.268245951374788,0.268245951374788,0.804737854124365),
(0.804737854124365,0.268245951374788,0.268245951374788,0.804737854124365),
(1.,0.333333333333333,0.333333333333333,1.)))
REPRESENTATION_ITEM('')
SURFACE()
);
#110=(
BOUNDED_SURFACE()
B_SPLINE_SURFACE(3,3,((#474,#475,#476,#477),(#478,#479,#480,#481),(#482,
#483,#484,#485),(#486,#487,#488,#489)),.UNSPECIFIED.,.F.,.F.,.F.)
B_SPLINE_SURFACE_WITH_KNOTS((4,4),(4,4),(0.,1.),(0.,1.),.UNSPECIFIED.)
GEOMETRIC_REPRESENTATION_ITEM()
RATIONAL_B_SPLINE_SURFACE(((1.,0.333333333333333,0.333333333333333,1.),
(0.804737854124365,0.268245951374788,0.268245951374788,0.804737854124365),
(0.804737854124365,0.268245951374788,0.268245951374788,0.804737854124365),
(1.,0.333333333333333,0.333333333333333,1.)))
REPRESENTATION_ITEM('')
SURFACE()
);
#111=CONICAL_SURFACE('',#309,3.85,45.);
#112=CONICAL_SURFACE('',#311,4.15,45.);
#113=CONICAL_SURFACE('',#330,4.15,45.);
#114=CONICAL_SURFACE('',#334,3.85,45.);
#115=ADVANCED_FACE('',(#136),#130,.T.);
#116=ADVANCED_FACE('',(#137),#111,.T.);
#117=ADVANCED_FACE('',(#138),#112,.T.);
#118=ADVANCED_FACE('',(#139),#131,.T.);
#119=ADVANCED_FACE('',(#140),#109,.T.);
#120=ADVANCED_FACE('',(#141),#132,.T.);
#121=ADVANCED_FACE('',(#107,#108),#104,.T.);
#122=ADVANCED_FACE('',(#142),#133,.T.);
#123=ADVANCED_FACE('',(#143),#110,.T.);
#124=ADVANCED_FACE('',(#144),#105,.T.);
#125=ADVANCED_FACE('',(#145),#134,.T.);
#126=ADVANCED_FACE('',(#146),#113,.T.);
#127=ADVANCED_FACE('',(#147),#106,.T.);
#128=ADVANCED_FACE('',(#148),#114,.T.);
#129=ADVANCED_FACE('',(#149),#135,.T.);
#130=CYLINDRICAL_SURFACE('',#307,4.85);
#131=CYLINDRICAL_SURFACE('',#313,4.15);
#132=CYLINDRICAL_SURFACE('',#319,8.);
#133=CYLINDRICAL_SURFACE('',#324,8.);
#134=CYLINDRICAL_SURFACE('',#328,4.15);
#135=CYLINDRICAL_SURFACE('',#335,4.85);
#136=FACE_OUTER_BOUND('',#150,.T.);
#137=FACE_OUTER_BOUND('',#151,.T.);
#138=FACE_OUTER_BOUND('',#152,.T.);
#139=FACE_OUTER_BOUND('',#153,.T.);
#140=FACE_OUTER_BOUND('',#154,.T.);
#141=FACE_OUTER_BOUND('',#155,.T.);
#142=FACE_OUTER_BOUND('',#158,.T.);
#143=FACE_OUTER_BOUND('',#159,.T.);
#144=FACE_OUTER_BOUND('',#160,.T.);
#145=FACE_OUTER_BOUND('',#161,.T.);
#146=FACE_OUTER_BOUND('',#162,.T.);
#147=FACE_OUTER_BOUND('',#163,.T.);
#148=FACE_OUTER_BOUND('',#164,.T.);
#149=FACE_OUTER_BOUND('',#165,.T.);
#150=EDGE_LOOP('',(#186,#187,#188,#189));
#151=EDGE_LOOP('',(#190,#191,#192,#193));
#152=EDGE_LOOP('',(#194,#195,#196,#197));
#153=EDGE_LOOP('',(#198,#199,#200,#201));
#154=EDGE_LOOP('',(#202,#203,#204,#205));
#155=EDGE_LOOP('',(#206,#207,#208,#209));
#156=EDGE_LOOP('',(#210,#211));
#157=EDGE_LOOP('',(#212,#213));
#158=EDGE_LOOP('',(#214,#215,#216,#217));
#159=EDGE_LOOP('',(#218,#219,#220,#221));
#160=EDGE_LOOP('',(#222,#223));
#161=EDGE_LOOP('',(#224,#225,#226,#227));
#162=EDGE_LOOP('',(#228,#229,#230,#231));
#163=EDGE_LOOP('',(#232,#233));
#164=EDGE_LOOP('',(#234,#235,#236,#237));
#165=EDGE_LOOP('',(#238,#239,#240,#241));
#166=LINE('',#414,#176);
#167=LINE('',#418,#177);
#168=LINE('',#423,#178);
#169=LINE('',#424,#179);
#170=LINE('',#429,#180);
#171=LINE('',#430,#181);
#172=LINE('',#432,#182);
#173=LINE('',#436,#183);
#174=LINE('',#462,#184);
#175=LINE('',#466,#185);
#176=VECTOR('',#340,1.);
#177=VECTOR('',#343,1.);
#178=VECTOR('',#348,1.);
#179=VECTOR('',#349,1.);
#180=VECTOR('',#354,1.);
#181=VECTOR('',#355,1.);
#182=VECTOR('',#358,1.);
#183=VECTOR('',#361,1.);
#184=VECTOR('',#372,1.);
#185=VECTOR('',#375,1.);
#186=ORIENTED_EDGE('',*,*,#258,.T.);
#187=ORIENTED_EDGE('',*,*,#259,.T.);
#188=ORIENTED_EDGE('',*,*,#260,.F.);
#189=ORIENTED_EDGE('',*,*,#261,.F.);
#190=ORIENTED_EDGE('',*,*,#262,.F.);
#191=ORIENTED_EDGE('',*,*,#263,.T.);
#192=ORIENTED_EDGE('',*,*,#258,.F.);
#193=ORIENTED_EDGE('',*,*,#264,.F.);
#194=ORIENTED_EDGE('',*,*,#265,.F.);
#195=ORIENTED_EDGE('',*,*,#266,.F.);
#196=ORIENTED_EDGE('',*,*,#260,.T.);
#197=ORIENTED_EDGE('',*,*,#267,.T.);
#198=ORIENTED_EDGE('',*,*,#265,.T.);
#199=ORIENTED_EDGE('',*,*,#268,.T.);
#200=ORIENTED_EDGE('',*,*,#269,.T.);
#201=ORIENTED_EDGE('',*,*,#270,.F.);
#202=ORIENTED_EDGE('',*,*,#271,.T.);
#203=ORIENTED_EDGE('',*,*,#272,.F.);
#204=ORIENTED_EDGE('',*,*,#273,.F.);
#205=ORIENTED_EDGE('',*,*,#274,.T.);
#206=ORIENTED_EDGE('',*,*,#273,.T.);
#207=ORIENTED_EDGE('',*,*,#275,.F.);
#208=ORIENTED_EDGE('',*,*,#276,.F.);
#209=ORIENTED_EDGE('',*,*,#277,.T.);
#210=ORIENTED_EDGE('',*,*,#276,.T.);
#211=ORIENTED_EDGE('',*,*,#278,.T.);
#212=ORIENTED_EDGE('',*,*,#279,.F.);
#213=ORIENTED_EDGE('',*,*,#269,.F.);
#214=ORIENTED_EDGE('',*,*,#275,.T.);
#215=ORIENTED_EDGE('',*,*,#280,.T.);
#216=ORIENTED_EDGE('',*,*,#277,.F.);
#217=ORIENTED_EDGE('',*,*,#278,.F.);
#218=ORIENTED_EDGE('',*,*,#272,.T.);
#219=ORIENTED_EDGE('',*,*,#281,.T.);
#220=ORIENTED_EDGE('',*,*,#274,.F.);
#221=ORIENTED_EDGE('',*,*,#280,.F.);
#222=ORIENTED_EDGE('',*,*,#271,.F.);
#223=ORIENTED_EDGE('',*,*,#281,.F.);
#224=ORIENTED_EDGE('',*,*,#268,.F.);
#225=ORIENTED_EDGE('',*,*,#282,.T.);
#226=ORIENTED_EDGE('',*,*,#270,.T.);
#227=ORIENTED_EDGE('',*,*,#279,.T.);
#228=ORIENTED_EDGE('',*,*,#266,.T.);
#229=ORIENTED_EDGE('',*,*,#282,.F.);
#230=ORIENTED_EDGE('',*,*,#267,.F.);
#231=ORIENTED_EDGE('',*,*,#283,.T.);
#232=ORIENTED_EDGE('',*,*,#284,.T.);
#233=ORIENTED_EDGE('',*,*,#262,.T.);
#234=ORIENTED_EDGE('',*,*,#263,.F.);
#235=ORIENTED_EDGE('',*,*,#284,.F.);
#236=ORIENTED_EDGE('',*,*,#264,.T.);
#237=ORIENTED_EDGE('',*,*,#285,.F.);
#238=ORIENTED_EDGE('',*,*,#259,.F.);
#239=ORIENTED_EDGE('',*,*,#285,.T.);
#240=ORIENTED_EDGE('',*,*,#261,.T.);
#241=ORIENTED_EDGE('',*,*,#283,.F.);
#242=VERTEX_POINT('',#412);
#243=VERTEX_POINT('',#413);
#244=VERTEX_POINT('',#415);
#245=VERTEX_POINT('',#417);
#246=VERTEX_POINT('',#421);
#247=VERTEX_POINT('',#422);
#248=VERTEX_POINT('',#427);
#249=VERTEX_POINT('',#428);
#250=VERTEX_POINT('',#433);
#251=VERTEX_POINT('',#435);
#252=VERTEX_POINT('',#439);
#253=VERTEX_POINT('',#440);
#254=VERTEX_POINT('',#442);
#255=VERTEX_POINT('',#444);
#256=VERTEX_POINT('',#463);
#257=VERTEX_POINT('',#465);
#258=EDGE_CURVE('',#242,#243,#286,.T.);
#259=EDGE_CURVE('',#243,#244,#166,.T.);
#260=EDGE_CURVE('',#245,#244,#287,.T.);
#261=EDGE_CURVE('',#242,#245,#167,.T.);
#262=EDGE_CURVE('',#246,#247,#288,.T.);
#263=EDGE_CURVE('',#246,#243,#168,.T.);
#264=EDGE_CURVE('',#247,#242,#169,.T.);
#265=EDGE_CURVE('',#248,#249,#289,.T.);
#266=EDGE_CURVE('',#245,#248,#170,.T.);
#267=EDGE_CURVE('',#244,#249,#171,.T.);
#268=EDGE_CURVE('',#249,#250,#172,.T.);
#269=EDGE_CURVE('',#250,#251,#290,.T.);
#270=EDGE_CURVE('',#248,#251,#173,.T.);
#271=EDGE_CURVE('',#252,#253,#291,.T.);
#272=EDGE_CURVE('',#254,#253,#292,.T.);
#273=EDGE_CURVE('',#255,#254,#293,.T.);
#274=EDGE_CURVE('',#255,#252,#294,.T.);
#275=EDGE_CURVE('',#256,#254,#174,.T.);
#276=EDGE_CURVE('',#257,#256,#295,.T.);
#277=EDGE_CURVE('',#257,#255,#175,.T.);
#278=EDGE_CURVE('',#256,#257,#296,.T.);
#279=EDGE_CURVE('',#251,#250,#297,.T.);
#280=EDGE_CURVE('',#254,#255,#298,.T.);
#281=EDGE_CURVE('',#253,#252,#299,.T.);
#282=EDGE_CURVE('',#249,#248,#300,.T.);
#283=EDGE_CURVE('',#244,#245,#301,.T.);
#284=EDGE_CURVE('',#247,#246,#302,.T.);
#285=EDGE_CURVE('',#243,#242,#303,.T.);
#286=CIRCLE('',#305,4.85);
#287=CIRCLE('',#306,4.85);
#288=CIRCLE('',#308,3.85);
#289=CIRCLE('',#310,4.15);
#290=CIRCLE('',#312,4.15);
#291=CIRCLE('',#314,1.5);
#292=CIRCLE('',#315,6.5);
#293=CIRCLE('',#316,8.);
#294=CIRCLE('',#317,6.5);
#295=CIRCLE('',#318,8.);
#296=CIRCLE('',#320,8.);
#297=CIRCLE('',#321,4.15);
#298=CIRCLE('',#323,8.);
#299=CIRCLE('',#325,1.5);
#300=CIRCLE('',#327,4.15);
#301=CIRCLE('',#329,4.85);
#302=CIRCLE('',#331,3.85);
#303=CIRCLE('',#333,4.85);
#304=AXIS2_PLACEMENT_3D('',#410,#336,#337);
#305=AXIS2_PLACEMENT_3D('',#411,#338,#339);
#306=AXIS2_PLACEMENT_3D('',#416,#341,#342);
#307=AXIS2_PLACEMENT_3D('',#419,#344,#345);
#308=AXIS2_PLACEMENT_3D('',#420,#346,#347);
#309=AXIS2_PLACEMENT_3D('',#425,#350,#351);
#310=AXIS2_PLACEMENT_3D('',#426,#352,#353);
#311=AXIS2_PLACEMENT_3D('',#431,#356,#357);
#312=AXIS2_PLACEMENT_3D('',#434,#359,#360);
#313=AXIS2_PLACEMENT_3D('',#437,#362,#363);
#314=AXIS2_PLACEMENT_3D('',#438,#364,#365);
#315=AXIS2_PLACEMENT_3D('',#441,#366,#367);
#316=AXIS2_PLACEMENT_3D('',#443,#368,#369);
#317=AXIS2_PLACEMENT_3D('',#445,#370,#371);
#318=AXIS2_PLACEMENT_3D('',#464,#373,#374);
#319=AXIS2_PLACEMENT_3D('',#467,#376,#377);
#320=AXIS2_PLACEMENT_3D('',#468,#378,#379);
#321=AXIS2_PLACEMENT_3D('',#469,#380,#381);
#322=AXIS2_PLACEMENT_3D('',#470,#382,#383);
#323=AXIS2_PLACEMENT_3D('',#471,#384,#385);
#324=AXIS2_PLACEMENT_3D('',#472,#386,#387);
#325=AXIS2_PLACEMENT_3D('',#473,#388,#389);
#326=AXIS2_PLACEMENT_3D('',#490,#390,#391);
#327=AXIS2_PLACEMENT_3D('',#491,#392,#393);
#328=AXIS2_PLACEMENT_3D('',#492,#394,#395);
#329=AXIS2_PLACEMENT_3D('',#493,#396,#397);
#330=AXIS2_PLACEMENT_3D('',#494,#398,#399);
#331=AXIS2_PLACEMENT_3D('',#495,#400,#401);
#332=AXIS2_PLACEMENT_3D('',#496,#402,#403);
#333=AXIS2_PLACEMENT_3D('',#497,#404,#405);
#334=AXIS2_PLACEMENT_3D('',#498,#406,#407);
#335=AXIS2_PLACEMENT_3D('',#499,#408,#409);
#336=DIRECTION('',(0.,0.,1.));
#337=DIRECTION('',(1.,0.,0.));
#338=DIRECTION('',(-1.,0.,0.));
#339=DIRECTION('',(0.,0.,-1.));
#340=DIRECTION('',(-1.,0.,0.));
#341=DIRECTION('',(-1.,0.,0.));
#342=DIRECTION('',(0.,0.,1.));
#343=DIRECTION('',(-1.,0.,0.));
#344=DIRECTION('',(-1.,0.,0.));
#345=DIRECTION('',(0.,0.,-1.));
#346=DIRECTION('',(1.,0.,0.));
#347=DIRECTION('',(0.,0.,-1.));
#348=DIRECTION('',(-0.707106781186548,8.65927457071935E-17,-0.707106781186547));
#349=DIRECTION('',(-0.707106781186548,0.,0.707106781186547));
#350=DIRECTION('',(-1.,0.,0.));
#351=DIRECTION('',(6.9122816196715E-18,0.,-1.));
#352=DIRECTION('',(-1.,0.,0.));
#353=DIRECTION('',(0.,0.,1.));
#354=DIRECTION('',(-0.707106781186547,-8.65927457071936E-17,-0.707106781186548));
#355=DIRECTION('',(-0.707106781186547,0.,0.707106781186548));
#356=DIRECTION('',(1.,0.,0.));
#357=DIRECTION('',(-9.50154769493843E-18,0.,1.));
#358=DIRECTION('',(-1.,0.,0.));
#359=DIRECTION('',(1.,0.,0.));
#360=DIRECTION('',(0.,0.,-1.));
#361=DIRECTION('',(-1.,0.,0.));
#362=DIRECTION('',(-1.,0.,0.));
#363=DIRECTION('',(0.,0.,-1.));
#364=DIRECTION('',(1.,0.,0.));
#365=DIRECTION('',(0.,0.,-1.));
#366=DIRECTION('',(0.,-1.,1.22460635382238E-16));
#367=DIRECTION('',(0.,1.22460635382238E-16,1.));
#368=DIRECTION('',(1.,0.,0.));
#369=DIRECTION('',(0.,0.,-1.));
#370=DIRECTION('',(0.,1.,0.));
#371=DIRECTION('',(0.,0.,-1.));
#372=DIRECTION('',(-1.,0.,0.));
#373=DIRECTION('',(1.,0.,0.));
#374=DIRECTION('',(0.,0.,-1.));
#375=DIRECTION('',(-1.,0.,0.));
#376=DIRECTION('',(1.,0.,0.));
#377=DIRECTION('',(0.,0.,1.));
#378=DIRECTION('',(1.,0.,0.));
#379=DIRECTION('',(0.,0.,-1.));
#380=DIRECTION('',(1.,0.,0.));
#381=DIRECTION('',(0.,0.,-1.));
#382=DIRECTION('',(1.,0.,0.));
#383=DIRECTION('',(0.,0.,1.));
#384=DIRECTION('',(1.,0.,0.));
#385=DIRECTION('',(0.,0.,-1.));
#386=DIRECTION('',(1.,0.,0.));
#387=DIRECTION('',(0.,0.,1.));
#388=DIRECTION('',(1.,0.,0.));
#389=DIRECTION('',(0.,0.,-1.));
#390=DIRECTION('',(-1.,0.,0.));
#391=DIRECTION('',(0.,0.,-1.));
#392=DIRECTION('',(-1.,0.,0.));
#393=DIRECTION('',(0.,0.,1.));
#394=DIRECTION('',(-1.,0.,0.));
#395=DIRECTION('',(0.,0.,-1.));
#396=DIRECTION('',(-1.,0.,0.));
#397=DIRECTION('',(0.,0.,1.));
#398=DIRECTION('',(1.,0.,0.));
#399=DIRECTION('',(-9.50154769493843E-18,0.,1.));
#400=DIRECTION('',(1.,0.,0.));
#401=DIRECTION('',(0.,0.,-1.));
#402=DIRECTION('',(1.,0.,0.));
#403=DIRECTION('',(0.,0.,1.));
#404=DIRECTION('',(-1.,0.,0.));
#405=DIRECTION('',(0.,0.,-1.));
#406=DIRECTION('',(-1.,0.,0.));
#407=DIRECTION('',(6.9122816196715E-18,0.,-1.));
#408=DIRECTION('',(-1.,0.,0.));
#409=DIRECTION('',(0.,0.,-1.));
#410=CARTESIAN_POINT('',(0.,0.,0.));
#411=CARTESIAN_POINT('',(7.,0.,0.));
#412=CARTESIAN_POINT('',(7.,0.,4.85));
#413=CARTESIAN_POINT('',(7.,5.93934081603853E-16,-4.85));
#414=CARTESIAN_POINT('',(8.,5.93934081603853E-16,-4.85));
#415=CARTESIAN_POINT('',(2.8,0.,-4.85));
#416=CARTESIAN_POINT('',(2.8,0.,0.));
#417=CARTESIAN_POINT('',(2.8,5.93934081603853E-16,4.85));
#418=CARTESIAN_POINT('',(8.,0.,4.85));
#419=CARTESIAN_POINT('',(8.,0.,0.));
#420=CARTESIAN_POINT('',(8.,0.,0.));
#421=CARTESIAN_POINT('',(8.,5.32703763912734E-16,-3.85));
#422=CARTESIAN_POINT('',(8.,0.,3.85));
#423=CARTESIAN_POINT('',(8.,4.71473446221615E-16,-3.85));
#424=CARTESIAN_POINT('',(8.,0.,3.85));
#425=CARTESIAN_POINT('',(8.,0.,0.));
#426=CARTESIAN_POINT('',(2.1,0.,0.));
#427=CARTESIAN_POINT('',(2.1,0.,4.15));
#428=CARTESIAN_POINT('',(2.1,5.08211636836287E-16,-4.15));
#429=CARTESIAN_POINT('',(2.1,5.08211636836287E-16,4.15));
#430=CARTESIAN_POINT('',(2.1,0.,-4.15));
#431=CARTESIAN_POINT('',(2.1,0.,0.));
#432=CARTESIAN_POINT('',(2.1,5.08211636836287E-16,-4.15));
#433=CARTESIAN_POINT('',(0.,5.08211636836287E-16,-4.15));
#434=CARTESIAN_POINT('',(0.,0.,0.));
#435=CARTESIAN_POINT('',(0.,0.,4.15));
#436=CARTESIAN_POINT('',(2.1,0.,4.15));
#437=CARTESIAN_POINT('',(2.1,0.,0.));
#438=CARTESIAN_POINT('',(-13.5,0.,0.));
#439=CARTESIAN_POINT('',(-13.5,0.,-1.5));
#440=CARTESIAN_POINT('',(-13.5,5.81688018065629E-16,1.5));
#441=CARTESIAN_POINT('',(-7.,1.83690953073357E-16,1.5));
#442=CARTESIAN_POINT('',(-7.,9.79685083057902E-16,8.));
#443=CARTESIAN_POINT('',(-7.,0.,0.));
#444=CARTESIAN_POINT('',(-7.,0.,-8.));
#445=CARTESIAN_POINT('',(-7.,0.,-1.5));
#446=CARTESIAN_POINT('',(-7.,-9.79717439317883E-16,-8.));
#447=CARTESIAN_POINT('',(-7.,16.,-8.));
#448=CARTESIAN_POINT('',(-7.,16.,8.));
#449=CARTESIAN_POINT('',(-7.,1.95943487863577E-15,8.));
#450=CARTESIAN_POINT('',(-10.8076118445749,-9.79717439317883E-16,-8.));
#451=CARTESIAN_POINT('',(-10.8076118445749,16.,-8.));
#452=CARTESIAN_POINT('',(-10.8076118445749,16.,8.));
#453=CARTESIAN_POINT('',(-10.8076118445749,1.95943487863577E-15,8.));
#454=CARTESIAN_POINT('',(-13.5,-6.49994985657521E-16,-5.30761184457488));
#455=CARTESIAN_POINT('',(-13.5,10.6152236891498,-5.30761184457488));
#456=CARTESIAN_POINT('',(-13.5,10.6152236891498,5.30761184457488));
#457=CARTESIAN_POINT('',(-13.5,1.29998997131504E-15,5.30761184457488));
#458=CARTESIAN_POINT('',(-13.5,-1.83697019872103E-16,-1.5));
#459=CARTESIAN_POINT('',(-13.5,3.,-1.5));
#460=CARTESIAN_POINT('',(-13.5,3.,1.5));
#461=CARTESIAN_POINT('',(-13.5,3.67394039744206E-16,1.5));
#462=CARTESIAN_POINT('',(0.,9.79685083057902E-16,8.));
#463=CARTESIAN_POINT('',(0.,9.79685083057902E-16,8.));
#464=CARTESIAN_POINT('',(0.,0.,0.));
#465=CARTESIAN_POINT('',(0.,0.,-8.));
#466=CARTESIAN_POINT('',(0.,0.,-8.));
#467=CARTESIAN_POINT('',(0.,0.,0.));
#468=CARTESIAN_POINT('',(0.,0.,0.));
#469=CARTESIAN_POINT('',(0.,0.,0.));
#470=CARTESIAN_POINT('',(0.,0.,0.));
#471=CARTESIAN_POINT('',(-7.,0.,0.));
#472=CARTESIAN_POINT('',(0.,0.,0.));
#473=CARTESIAN_POINT('',(-13.5,0.,0.));
#474=CARTESIAN_POINT('',(-7.,0.,8.));
#475=CARTESIAN_POINT('',(-7.,-16.,8.));
#476=CARTESIAN_POINT('',(-7.,-16.,-8.));
#477=CARTESIAN_POINT('',(-7.,-9.79717439317883E-16,-8.));
#478=CARTESIAN_POINT('',(-10.8076118445749,0.,8.));
#479=CARTESIAN_POINT('',(-10.8076118445749,-16.,8.));
#480=CARTESIAN_POINT('',(-10.8076118445749,-16.,-8.));
#481=CARTESIAN_POINT('',(-10.8076118445749,-9.79717439317883E-16,-8.));
#482=CARTESIAN_POINT('',(-13.5,0.,5.30761184457488));
#483=CARTESIAN_POINT('',(-13.5,-10.6152236891498,5.30761184457488));
#484=CARTESIAN_POINT('',(-13.5,-10.6152236891498,-5.30761184457488));
#485=CARTESIAN_POINT('',(-13.5,-6.49994985657521E-16,-5.30761184457488));
#486=CARTESIAN_POINT('',(-13.5,0.,1.5));
#487=CARTESIAN_POINT('',(-13.5,-3.,1.5));
#488=CARTESIAN_POINT('',(-13.5,-3.,-1.5));
#489=CARTESIAN_POINT('',(-13.5,-1.83697019872103E-16,-1.5));
#490=CARTESIAN_POINT('',(-13.5,1.5,0.));
#491=CARTESIAN_POINT('',(2.1,0.,0.));
#492=CARTESIAN_POINT('',(2.1,0.,0.));
#493=CARTESIAN_POINT('',(2.8,0.,0.));
#494=CARTESIAN_POINT('',(2.1,0.,0.));
#495=CARTESIAN_POINT('',(8.,0.,0.));
#496=CARTESIAN_POINT('',(8.,0.,0.));
#497=CARTESIAN_POINT('',(7.,0.,0.));
#498=CARTESIAN_POINT('',(8.,0.,0.));
#499=CARTESIAN_POINT('',(8.,0.,0.));
#500=MECHANICAL_DESIGN_GEOMETRIC_PRESENTATION_REPRESENTATION('',(#94),#501);
#501=(
GEOMETRIC_REPRESENTATION_CONTEXT(3)
GLOBAL_UNCERTAINTY_ASSIGNED_CONTEXT((#502))
GLOBAL_UNIT_ASSIGNED_CONTEXT((#508,#504,#503))
REPRESENTATION_CONTEXT('TTF01S','TOP_LEVEL_ASSEMBLY_PART')
);
#502=UNCERTAINTY_MEASURE_WITH_UNIT(LENGTH_MEASURE(0.0254),#508,
'DISTANCE_ACCURACY_VALUE','Maximum Tolerance applied to model');
#503=(
NAMED_UNIT(*)
SI_UNIT($,.STERADIAN.)
SOLID_ANGLE_UNIT()
);
#504=(
CONVERSION_BASED_UNIT('DEGREE',#506)
NAMED_UNIT(#505)
PLANE_ANGLE_UNIT()
);
#505=DIMENSIONAL_EXPONENTS(0.,0.,0.,0.,0.,0.,0.);
#506=PLANE_ANGLE_MEASURE_WITH_UNIT(PLANE_ANGLE_MEASURE(0.0174532925),#507);
#507=(
NAMED_UNIT(*)
PLANE_ANGLE_UNIT()
SI_UNIT($,.RADIAN.)
);
#508=(
LENGTH_UNIT()
NAMED_UNIT(*)
SI_UNIT(.MILLI.,.METRE.)
);
ENDSEC;
END-ISO-10303-21;
